  0
SECTION
  2
HEADER
  9
$ACADVER
  1
AC1015
  9
$ACADMAINTVER
 70
     6
  9
$DWGCODEPAGE
  3
ANSI_1254
  9
$INSBASE
 10
0.0
 20
0.0
 30
0.0
  9
$EXTMIN
 10
0.0
 20
0.0
 30
0.0
  9
$EXTMAX
 10
279.4
 20
215.9
 30
0.0
  9
$LIMMIN
 10
0.0
 20
0.0
  9
$LIMMAX
 10
279.4
 20
215.9
  9
$ORTHOMODE
 70
     0
  9
$REGENMODE
 70
     1
  9
$FILLMODE
 70
     1
  9
$QTEXTMODE
 70
     0
  9
$MIRRTEXT
 70
     1
  9
$LTSCALE
 40
1.0
  9
$ATTMODE
 70
     1
  9
$TEXTSIZE
 40
3.5
  9
$TRACEWID
 40
1.0
  9
$TEXTSTYLE
  7
Standard
  9
$CLAYER
  8
0
  9
$CELTYPE
  6
ByLayer
  9
$CECOLOR
 62
   256
  9
$CELTSCALE
 40
1.0
  9
$DISPSILH
 70
     0
  9
$DIMSCALE
 40
1.0
  9
$DIMASZ
 40
3.5
  9
$DIMEXO
 40
1.0
  9
$DIMDLI
 40
3.75
  9
$DIMRND
 40
0.0
  9
$DIMDLE
 40
0.0
  9
$DIMEXE
 40
1.0
  9
$DIMTP
 40
0.0
  9
$DIMTM
 40
0.0
  9
$DIMTXT
 40
3.5
  9
$DIMCEN
 40
2.5
  9
$DIMTSZ
 40
0.0
  9
$DIMTOL
 70
     0
  9
$DIMLIM
 70
     0
  9
$DIMTIH
 70
     1
  9
$DIMTOH
 70
     1
  9
$DIMSE1
 70
     0
  9
$DIMSE2
 70
     0
  9
$DIMTAD
 70
     1
  9
$DIMZIN
 70
     0
  9
$DIMBLK
  1

  9
$DIMASO
 70
     1
  9
$DIMSHO
 70
     1
  9
$DIMPOST
  1

  9
$DIMAPOST
  1

  9
$DIMALT
 70
     0
  9
$DIMALTD
 70
     3
  9
$DIMALTF
 40
0.0393700787
  9
$DIMLFAC
 40
1.0
  9
$DIMTOFL
 70
     1
  9
$DIMTVP
 40
0.0
  9
$DIMTIX
 70
     0
  9
$DIMSOXD
 70
     0
  9
$DIMSAH
 70
     0
  9
$DIMBLK1
  1

  9
$DIMBLK2
  1

  9
$DIMSTYLE
  2
ISO-25
  9
$DIMCLRD
 70
     0
  9
$DIMCLRE
 70
     0
  9
$DIMCLRT
 70
     0
  9
$DIMTFAC
 40
1.0
  9
$DIMGAP
 40
1.524
  9
$DIMJUST
 70
     0
  9
$DIMSD1
 70
     0
  9
$DIMSD2
 70
     0
  9
$DIMTOLJ
 70
     0
  9
$DIMTZIN
 70
     0
  9
$DIMALTZ
 70
     0
  9
$DIMALTTZ
 70
     0
  9
$DIMUPT
 70
     0
  9
$DIMDEC
 70
     2
  9
$DIMTDEC
 70
     2
  9
$DIMALTU
 70
     2
  9
$DIMALTTD
 70
     3
  9
$DIMTXSTY
  7
Standard
  9
$DIMAUNIT
 70
     0
  9
$DIMADEC
 70
     2
  9
$DIMALTRND
 40
0.0
  9
$DIMAZIN
 70
     0
  9
$DIMDSEP
 70
    44
  9
$DIMATFIT
 70
     3
  9
$DIMFRAC
 70
     0
  9
$DIMLDRBLK
  1

  9
$DIMLUNIT
 70
     2
  9
$DIMLWD
 70
    -2
  9
$DIMLWE
 70
    -2
  9
$DIMTMOVE
 70
     0
  9
$LUNITS
 70
     2
  9
$LUPREC
 70
     2
  9
$SKETCHINC
 40
1.0
  9
$FILLETRAD
 40
10.0
  9
$AUNITS
 70
     0
  9
$AUPREC
 70
     2
  9
$MENU
  1
.
  9
$ELEVATION
 40
0.0
  9
$PELEVATION
 40
0.0
  9
$THICKNESS
 40
0.0
  9
$LIMCHECK
 70
     0
  9
$CHAMFERA
 40
0.0
  9
$CHAMFERB
 40
0.0
  9
$CHAMFERC
 40
0.0
  9
$CHAMFERD
 40
0.0
  9
$SKPOLY
 70
     0
  9
$TDCREATE
 40
2458985.68260206
  9
$TDUCREATE
 40
2458985.55760206
  9
$TDUPDATE
 40
2458985.682602361
  9
$TDUUPDATE
 40
2458985.557602361
  9
$TDINDWG
 40
0.0000000116
  9
$TDUSRTIMER
 40
0.0000000116
  9
$USRTIMER
 70
     1
  9
$ANGBASE
 50
0.0
  9
$ANGDIR
 70
     0
  9
$PDMODE
 70
     0
  9
$PDSIZE
 40
-1.0
  9
$PLINEWID
 40
0.0
  9
$SPLFRAME
 70
     0
  9
$SPLINETYPE
 70
     6
  9
$SPLINESEGS
 70
     8
  9
$HANDSEED
  5
CB
  9
$SURFTAB1
 70
     6
  9
$SURFTAB2
 70
     6
  9
$SURFTYPE
 70
     6
  9
$SURFU
 70
     6
  9
$SURFV
 70
     6
  9
$UCSBASE
  2

  9
$UCSNAME
  2

  9
$UCSORG
 10
0.0
 20
0.0
 30
0.0
  9
$UCSXDIR
 10
1.0
 20
0.0
 30
0.0
  9
$UCSYDIR
 10
0.0
 20
1.0
 30
0.0
  9
$UCSORTHOREF
  2

  9
$UCSORTHOVIEW
 70
     0
  9
$UCSORGTOP
 10
0.0
 20
0.0
 30
0.0
  9
$UCSORGBOTTOM
 10
0.0
 20
0.0
 30
0.0
  9
$UCSORGLEFT
 10
0.0
 20
0.0
 30
0.0
  9
$UCSORGRIGHT
 10
0.0
 20
0.0
 30
0.0
  9
$UCSORGFRONT
 10
0.0
 20
0.0
 30
0.0
  9
$UCSORGBACK
 10
0.0
 20
0.0
 30
0.0
  9
$PUCSBASE
  2

  9
$PUCSNAME
  2

  9
$PUCSORG
 10
0.0
 20
0.0
 30
0.0
  9
$PUCSXDIR
 10
1.0
 20
0.0
 30
0.0
  9
$PUCSYDIR
 10
0.0
 20
1.0
 30
0.0
  9
$PUCSORTHOREF
  2

  9
$PUCSORTHOVIEW
 70
     0
  9
$PUCSORGTOP
 10
0.0
 20
0.0
 30
0.0
  9
$PUCSORGBOTTOM
 10
0.0
 20
0.0
 30
0.0
  9
$PUCSORGLEFT
 10
0.0
 20
0.0
 30
0.0
  9
$PUCSORGRIGHT
 10
0.0
 20
0.0
 30
0.0
  9
$PUCSORGFRONT
 10
0.0
 20
0.0
 30
0.0
  9
$PUCSORGBACK
 10
0.0
 20
0.0
 30
0.0
  9
$USERI1
 70
     0
  9
$USERI2
 70
     0
  9
$USERI3
 70
     0
  9
$USERI4
 70
     0
  9
$USERI5
 70
     0
  9
$USERR1
 40
0.0
  9
$USERR2
 40
0.0
  9
$USERR3
 40
0.0
  9
$USERR4
 40
0.0
  9
$USERR5
 40
0.0
  9
$WORLDVIEW
 70
     1
  9
$SHADEDGE
 70
     3
  9
$SHADEDIF
 70
    70
  9
$TILEMODE
 70
     1
  9
$MAXACTVP
 70
    64
  9
$PINSBASE
 10
0.0
 20
0.0
 30
0.0
  9
$PLIMCHECK
 70
     0
  9
$PEXTMIN
 10
1.0000000000E+20
 20
1.0000000000E+20
 30
1.0000000000E+20
  9
$PEXTMAX
 10
-1.0000000000E+20
 20
-1.0000000000E+20
 30
-1.0000000000E+20
  9
$PLIMMIN
 10
0.0
 20
0.0
  9
$PLIMMAX
 10
420.0
 20
297.0
  9
$UNITMODE
 70
     0
  9
$VISRETAIN
 70
     1
  9
$PLINEGEN
 70
     0
  9
$PSLTSCALE
 70
     1
  9
$TREEDEPTH
 70
  3020
  9
$CMLSTYLE
  2
Standard
  9
$CMLJUST
 70
     0
  9
$CMLSCALE
 40
20.0
  9
$PROXYGRAPHICS
 70
     1
  9
$MEASUREMENT
 70
     1
  9
$CELWEIGHT
370
    -1
  9
$ENDCAPS
280
     0
  9
$JOINSTYLE
280
     0
  9
$LWDISPLAY
290
     1
  9
$INSUNITS
 70
     4
  9
$HYPERLINKBASE
  1

  9
$STYLESHEET
  1

  9
$XEDIT
290
     1
  9
$CEPSNTYPE
380
     0
  9
$PSTYLEMODE
290
     1
  9
$FINGERPRINTGUID
  2
{34b47c18-0856-458d-ab5e-71d12387d1e6}
  9
$VERSIONGUID
  2
{FAEB1C32-E019-11D5-929B-00C0DF256EC4}
  9
$EXTNAMES
290
     1
  9
$PSVPSCALE
 40
0.0
  9
$OLESTARTUP
290
     0
  0
ENDSEC
  0
SECTION
  2
CLASSES
  0
CLASS
  1
ACDBDICTIONARYWDFLT
  2
AcDbDictionaryWithDefault
  3
ObjectDBX Classes
 90
        0
280
     0
281
     0
  0
CLASS
  1
VISUALSTYLE
  2
AcDbVisualStyle
  3
ObjectDBX Classes
 90
     4095
280
     0
281
     0
  0
CLASS
  1
MATERIAL
  2
AcDbMaterial
  3
ObjectDBX Classes
 90
     1153
280
     0
281
     0
  0
CLASS
  1
SCALE
  2
AcDbScale
  3
ObjectDBX Classes
 90
     1153
280
     0
281
     0
  0
CLASS
  1
TABLESTYLE
  2
AcDbTableStyle
  3
ObjectDBX Classes
 90
     4095
280
     0
281
     0
  0
CLASS
  1
MLEADERSTYLE
  2
AcDbMLeaderStyle
  3
ACDB_MLEADERSTYLE_CLASS
 90
     4095
280
     0
281
     0
  0
CLASS
  1
SUN
  2
AcDbSun
  3
SCENEOE
 90
     1153
280
     0
281
     0
  0
CLASS
  1
ACDBPLACEHOLDER
  2
AcDbPlaceHolder
  3
ObjectDBX Classes
 90
        0
280
     0
281
     0
  0
CLASS
  1
LAYOUT
  2
AcDbLayout
  3
ObjectDBX Classes
 90
        0
280
     0
281
     0
  0
ENDSEC
  0
SECTION
  2
TABLES
  0
TABLE
  2
VPORT
  5
8
330
0
100
AcDbSymbolTable
 70
     1
  0
VPORT
  5
29
330
8
100
AcDbSymbolTableRecord
100
AcDbViewportTableRecord
  2
*Active
 70
     0
 10
0.0
 20
0.0
 11
1.0
 21
1.0
 12
139.7
 22
107.95
 13
0.0
 23
0.0
 14
10.0
 24
10.0
 15
10.0
 25
10.0
 16
0.0
 26
0.0
 36
1.0
 17
0.0
 27
0.0
 37
0.0
 40
215.9
 41
1.2941176471
 42
50.0
 43
0.0
 44
0.0
 50
0.0
 51
0.0
 71
     0
 72
  2000
 73
     1
 74
     3
 75
     0
 76
     0
 77
     0
 78
     0
281
     0
 65
     1
110
0.0
120
0.0
130
0.0
111
1.0
121
0.0
131
0.0
112
0.0
122
1.0
132
0.0
 79
     0
146
0.0
  0
ENDTAB
  0
TABLE
  2
LTYPE
  5
5
330
0
100
AcDbSymbolTable
 70
     6
  0
LTYPE
  5
14
330
5
100
AcDbSymbolTableRecord
100
AcDbLinetypeTableRecord
  2
ByBlock
 70
     0
  3

 72
    65
 73
     0
 40
0.0
  0
LTYPE
  5
15
330
5
100
AcDbSymbolTableRecord
100
AcDbLinetypeTableRecord
  2
ByLayer
 70
     0
  3

 72
    65
 73
     0
 40
0.0
  0
LTYPE
  5
16
330
5
100
AcDbSymbolTableRecord
100
AcDbLinetypeTableRecord
  2
Continuous
 70
     0
  3
Solid line
 72
    65
 73
     0
 40
0.0
  0
LTYPE
  5
6E
330
5
100
AcDbSymbolTableRecord
100
AcDbLinetypeTableRecord
  2
HIDDEN
 70
     0
  3
Hidden __ __ __ __ __ __ __ __ __ __ __ __ __ __
 72
    65
 73
     2
 40
1.905
 49
1.27
 74
     0
 49
-0.635
 74
     0
  0
LTYPE
  5
6F
330
5
100
AcDbSymbolTableRecord
100
AcDbLinetypeTableRecord
  2
PHANTOM
 70
     0
  3
Phantom ______  __  __  ______  __  __  ______
 72
    65
 73
     6
 40
12.7
 49
6.35
 74
     0
 49
-1.27
 74
     0
 49
1.27
 74
     0
 49
-1.27
 74
     0
 49
1.27
 74
     0
 49
-1.27
 74
     0
  0
LTYPE
  5
70
330
5
100
AcDbSymbolTableRecord
100
AcDbLinetypeTableRecord
  2
CENTER
 70
     0
  3
Center ____ _ ____ _ ____ _ ____ _ ____ _ ____
 72
    65
 73
     4
 40
10.16
 49
6.35
 74
     0
 49
-1.27
 74
     0
 49
1.27
 74
     0
 49
-1.27
 74
     0
  0
LTYPE
  5
71
330
5
100
AcDbSymbolTableRecord
100
AcDbLinetypeTableRecord
  2
CENTERX2
 70
     0
  3
Center (2x) ________  __  ________  __  _____
 72
    65
 73
     4
 40
20.32
 49
12.7
 74
     0
 49
-2.54
 74
     0
 49
2.54
 74
     0
 49
-2.54
 74
     0
  0
LTYPE
  5
72
330
5
100
AcDbSymbolTableRecord
100
AcDbLinetypeTableRecord
  2
DOT2
 70
     0
  3
Dot (.5x) ........................................
 72
    65
 73
     2
 40
0.635
 49
0.0
 74
     0
 49
-0.635
 74
     0
  0
ENDTAB
  0
TABLE
  2
LAYER
  5
2
330
0
100
AcDbSymbolTable
 70
    17
  0
LAYER
  5
10
330
2
100
AcDbSymbolTableRecord
100
AcDbLayerTableRecord
  2
0
 70
     0
 62
     7
  6
Continuous
370
    -3
390
F
  0
LAYER
  5
73
330
2
100
AcDbSymbolTableRecord
100
AcDbLayerTableRecord
  2
FORMAT
 70
     0
 62
     7
  6
Continuous
370
    -3
390
F
  0
LAYER
  5
74
330
2
100
AcDbSymbolTableRecord
100
AcDbLayerTableRecord
  2
YARDIMCI_GEOMETRI
 70
     0
 62
    -6
  6
Continuous
290
     0
370
    -3
390
F
  0
LAYER
  5
75
330
2
100
AcDbSymbolTableRecord
100
AcDbLayerTableRecord
  2
SAYFA_CERCEVESI
 70
     0
 62
     7
  6
Continuous
370
    25
390
F
  0
LAYER
  5
76
330
2
100
AcDbSymbolTableRecord
100
AcDbLayerTableRecord
  2
ANTET
 70
     0
 62
     7
  6
Continuous
370
    -3
390
F
  0
LAYER
  5
77
330
2
100
AcDbSymbolTableRecord
100
AcDbLayerTableRecord
  2
OLCU
 70
     0
 62
   150
  6
Continuous
370
    -3
390
F
  0
LAYER
  5
78
330
2
100
AcDbSymbolTableRecord
100
AcDbLayerTableRecord
  2
METIN
 70
     0
 62
    96
  6
Continuous
370
    -3
390
F
  0
LAYER
  5
79
330
2
100
AcDbSymbolTableRecord
100
AcDbLayerTableRecord
  2
BALON
 70
     0
 62
     5
  6
Continuous
370
    -3
390
F
  0
LAYER
  5
7A
330
2
100
AcDbSymbolTableRecord
100
AcDbLayerTableRecord
  2
VURGU
 70
     0
 62
     7
  6
Continuous
370
    -3
390
F
  0
LAYER
  5
7B
330
2
100
AcDbSymbolTableRecord
100
AcDbLayerTableRecord
  2
SILIK
 70
     0
 62
     7
  6
Continuous
370
    -3
390
F
  0
LAYER
  5
7C
330
2
100
AcDbSymbolTableRecord
100
AcDbLayerTableRecord
  2
MODEL
 70
     0
 62
     7
  6
Continuous
370
    -3
390
F
  0
LAYER
  5
7D
330
2
100
AcDbSymbolTableRecord
100
AcDbLayerTableRecord
  2
DETAYLANDıRMA
 70
     0
 62
   190
  6
Continuous
370
    -3
390
F
  0
LAYER
  5
7E
330
2
100
AcDbSymbolTableRecord
100
AcDbLayerTableRecord
  2
TOLERANS
 70
     0
 62
   230
  6
Continuous
370
    -3
390
F
  0
LAYER
  5
7F
330
2
100
AcDbSymbolTableRecord
100
AcDbLayerTableRecord
  2
MERKEZ_CIZGILERI
 70
     0
 62
    30
  6
Continuous
370
    -3
390
F
  0
LAYER
  5
80
330
2
100
AcDbSymbolTableRecord
100
AcDbLayerTableRecord
  2
KESIT-DETAY_CIZGILERI
 70
     0
 62
     7
  6
Continuous
370
    -3
390
F
  0
LAYER
  5
81
330
2
100
AcDbSymbolTableRecord
100
AcDbLayerTableRecord
  2
\U+041E\U+0421\U+0415\U+0412\U+042B\U+0415
 70
     0
 62
     7
  6
Continuous
370
    -3
390
F
  0
LAYER
  5
82
330
2
100
AcDbSymbolTableRecord
100
AcDbLayerTableRecord
  2
\U+0412\U+041E\U+0414\U+042F\U+041D\U+042B\U+0415_\U+0417\U+041D\U+0410\U+041A\U+0418
 70
     0
 62
    11
  6
Continuous
370
    -3
390
F
  0
ENDTAB
  0
TABLE
  2
STYLE
  5
3
330
0
100
AcDbSymbolTable
 70
     1
  0
STYLE
  5
11
330
3
100
AcDbSymbolTableRecord
100
AcDbTextStyleTableRecord
  2
Standard
 70
     0
 40
0.0
 41
1.0
 50
0.0
 71
     0
 42
3.5
  3
txt
  4

  0
ENDTAB
  0
TABLE
  2
VIEW
  5
6
330
0
100
AcDbSymbolTable
 70
     0
  0
ENDTAB
  0
TABLE
  2
UCS
  5
7
330
0
100
AcDbSymbolTable
 70
     0
  0
ENDTAB
  0
TABLE
  2
APPID
  5
9
330
0
100
AcDbSymbolTable
 70
     1
  0
APPID
  5
12
330
9
100
AcDbSymbolTableRecord
100
AcDbRegAppTableRecord
  2
ACAD
 70
     0
  0
ENDTAB
  0
TABLE
  2
DIMSTYLE
  5
A
330
0
100
AcDbSymbolTable
 70
     1
100
AcDbDimStyleTable
  0
DIMSTYLE
105
27
330
A
100
AcDbSymbolTableRecord
100
AcDbDimStyleTableRecord
  2
ISO-25
 70
     0
 41
2.5
 42
0.625
 43
3.75
 44
1.25
 73
     0
 74
     0
 77
     1
 78
     8
140
2.5
141
2.5
143
0.0393700787
147
0.625
171
     3
172
     1
178
     0
271
     2
272
     2
274
     3
278
    44
283
     0
284
     8
340
11
  0
ENDTAB
  0
TABLE
  2
BLOCK_RECORD
  5
1
330
0
100
AcDbSymbolTable
 70
     3
  0
BLOCK_RECORD
  5
1F
330
1
100
AcDbSymbolTableRecord
100
AcDbBlockTableRecord
  2
*Model_Space
340
22
  0
BLOCK_RECORD
  5
1B
330
1
100
AcDbSymbolTableRecord
100
AcDbBlockTableRecord
  2
*Paper_Space
340
1E
  0
BLOCK_RECORD
  5
23
330
1
100
AcDbSymbolTableRecord
100
AcDbBlockTableRecord
  2
*Paper_Space0
340
26
  0
BLOCK_RECORD
  5
88
330
1
100
AcDbSymbolTableRecord
100
AcDbBlockTableRecord
  2
SW_CENTERMARKSYMBOL_0
340
0
102
{BLKREFS
331
93
102
}
  0
BLOCK_RECORD
  5
B2
330
1
100
AcDbSymbolTableRecord
100
AcDbBlockTableRecord
  2
SW_CENTERMARKSYMBOL_1
340
0
102
{BLKREFS
331
BD
102
}
  0
ENDTAB
  0
ENDSEC
  0
SECTION
  2
BLOCKS
  0
BLOCK
  5
20
330
1F
100
AcDbEntity
  8
0
100
AcDbBlockBegin
  2
*Model_Space
 70
     0
 10
0.0
 20
0.0
 30
0.0
  3
*Model_Space
  1

  0
ENDBLK
  5
21
330
1F
100
AcDbEntity
  8
0
100
AcDbBlockEnd
  0
BLOCK
  5
1C
330
1B
100
AcDbEntity
 67
     1
  8
0
100
AcDbBlockBegin
  2
*Paper_Space
 70
     0
 10
0.0
 20
0.0
 30
0.0
  3
*Paper_Space
  1

  0
ENDBLK
  5
1D
330
1B
100
AcDbEntity
 67
     1
  8
0
100
AcDbBlockEnd
  0
BLOCK
  5
24
330
23
100
AcDbEntity
  8
0
100
AcDbBlockBegin
  2
*Paper_Space0
 70
     0
 10
0.0
 20
0.0
 30
0.0
  3
*Paper_Space0
  1

  0
ENDBLK
  5
25
330
23
100
AcDbEntity
  8
0
100
AcDbBlockEnd
  0
BLOCK
  5
89
330
88
100
AcDbEntity
  8
0
100
AcDbBlockBegin
  2
SW_CENTERMARKSYMBOL_0
 70
     0
 10
0.0
 20
0.0
 30
0.0
  3
SW_CENTERMARKSYMBOL_0
  1

  0
LINE
  5
8B
330
88
100
AcDbEntity
  8
FORMAT
 62
     0
100
AcDbLine
 10
0.0
 20
0.0
 30
0.0
 11
0.0
 21
2.5
 31
0.0
  0
LINE
  5
8C
330
88
100
AcDbEntity
  8
FORMAT
 62
     0
100
AcDbLine
 10
0.0
 20
0.0
 30
0.0
 11
-2.5
 21
0.0
 31
0.0
  0
LINE
  5
8D
330
88
100
AcDbEntity
  8
FORMAT
 62
     0
100
AcDbLine
 10
0.0
 20
0.0
 30
0.0
 11
0.0
 21
-2.5
 31
0.0
  0
LINE
  5
8E
330
88
100
AcDbEntity
  8
FORMAT
 62
     0
100
AcDbLine
 10
0.0
 20
0.0
 30
0.0
 11
2.5
 21
0.0
 31
0.0
  0
LINE
  5
8F
330
88
100
AcDbEntity
  8
FORMAT
 62
     0
100
AcDbLine
 10
0.0
 20
5.0
 30
0.0
 11
0.0
 21
82.5
 31
0.0
  0
LINE
  5
90
330
88
100
AcDbEntity
  8
FORMAT
 62
     0
100
AcDbLine
 10
-5.0
 20
0.0
 30
0.0
 11
-82.5
 21
0.0
 31
0.0
  0
LINE
  5
91
330
88
100
AcDbEntity
  8
FORMAT
 62
     0
100
AcDbLine
 10
0.0
 20
-5.0
 30
0.0
 11
0.0
 21
-82.5
 31
0.0
  0
LINE
  5
92
330
88
100
AcDbEntity
  8
FORMAT
 62
     0
100
AcDbLine
 10
5.0
 20
0.0
 30
0.0
 11
82.5
 21
0.0
 31
0.0
  0
ENDBLK
  5
8A
330
88
100
AcDbEntity
  8
0
100
AcDbBlockEnd
  0
BLOCK
  5
B3
330
B2
100
AcDbEntity
  8
0
100
AcDbBlockBegin
  2
SW_CENTERMARKSYMBOL_1
 70
     0
 10
0.0
 20
0.0
 30
0.0
  3
SW_CENTERMARKSYMBOL_1
  1

  0
LINE
  5
B5
330
B2
100
AcDbEntity
  8
FORMAT
 62
     0
100
AcDbLine
 10
0.0
 20
0.0
 30
0.0
 11
0.0
 21
2.5
 31
0.0
  0
LINE
  5
B6
330
B2
100
AcDbEntity
  8
FORMAT
 62
     0
100
AcDbLine
 10
0.0
 20
0.0
 30
0.0
 11
-2.5
 21
0.0
 31
0.0
  0
LINE
  5
B7
330
B2
100
AcDbEntity
  8
FORMAT
 62
     0
100
AcDbLine
 10
0.0
 20
0.0
 30
0.0
 11
0.0
 21
-2.5
 31
0.0
  0
LINE
  5
B8
330
B2
100
AcDbEntity
  8
FORMAT
 62
     0
100
AcDbLine
 10
0.0
 20
0.0
 30
0.0
 11
2.5
 21
0.0
 31
0.0
  0
LINE
  5
B9
330
B2
100
AcDbEntity
  8
FORMAT
 62
     0
100
AcDbLine
 10
0.0
 20
5.0
 30
0.0
 11
0.0
 21
72.5
 31
0.0
  0
LINE
  5
BA
330
B2
100
AcDbEntity
  8
FORMAT
 62
     0
100
AcDbLine
 10
-5.0
 20
0.0
 30
0.0
 11
-72.5
 21
0.0
 31
0.0
  0
LINE
  5
BB
330
B2
100
AcDbEntity
  8
FORMAT
 62
     0
100
AcDbLine
 10
0.0
 20
-5.0
 30
0.0
 11
0.0
 21
-72.5
 31
0.0
  0
LINE
  5
BC
330
B2
100
AcDbEntity
  8
FORMAT
 62
     0
100
AcDbLine
 10
5.0
 20
0.0
 30
0.0
 11
72.5
 21
0.0
 31
0.0
  0
ENDBLK
  5
B4
330
B2
100
AcDbEntity
  8
0
100
AcDbBlockEnd
  0
ENDSEC
  0
SECTION
  2
ENTITIES
  0
LINE
  5
83
330
1F
100
AcDbEntity
  8
0
  6
Continuous
 62
     7
370
    25
100
AcDbLine
 10
116.8710643306
 20
42.0281995572
 30
0.0
 11
278.0544443621
 21
42.0281995572
 31
0.0
  0
LINE
  5
84
330
1F
100
AcDbEntity
  8
0
  6
Continuous
 62
     7
370
    25
100
AcDbLine
 10
278.0544443621
 20
182.0281995572
 30
0.0
 11
116.9107978845
 21
182.0281995572
 31
0.0
  0
CIRCLE
  5
85
330
1F
100
AcDbEntity
  8
0
  6
Continuous
 62
     7
370
    25
100
AcDbCircle
 10
78.0544443621
 20
112.0281995572
 30
0.0
 40
65.4
  0
CIRCLE
  5
86
330
1F
100
AcDbEntity
  8
0
  6
Continuous
 62
     7
370
    25
100
AcDbCircle
 10
78.0544443621
 20
112.0281995572
 30
0.0
 40
80.0
  0
LINE
  5
87
330
1F
100
AcDbEntity
  8
0
  6
Continuous
 62
     7
370
    25
100
AcDbLine
 10
278.0544443621
 20
182.0281995572
 30
0.0
 11
278.0544443621
 21
42.0281995572
 31
0.0
  0
INSERT
  5
93
330
1F
100
AcDbEntity
  8
FORMAT
100
AcDbBlockReference
  2
SW_CENTERMARKSYMBOL_0
 10
78.0544443621
 20
112.0281995572
 30
0.0
  0
LINE
  5
94
330
1F
100
AcDbEntity
  8
0
  6
Continuous
 62
     7
370
    25
100
AcDbLine
 10
-1.9455556379
 20
-69.0070245923
 30
0.0
 11
-1.9455556379
 21
-486.0070245923
 31
0.0
  0
LINE
  5
95
330
1F
100
AcDbEntity
  8
0
  6
Continuous
 62
     7
370
    25
100
AcDbLine
 10
158.0544443621
 20
-207.5474200197
 30
0.0
 11
158.0544443621
 21
-69.0070245923
 31
0.0
  0
LINE
  5
96
330
1F
100
AcDbEntity
  8
0
  6
Continuous
 62
     7
370
    25
100
AcDbLine
 10
158.0544443621
 20
-486.0070245923
 30
0.0
 11
158.0544443621
 21
-347.5070245923
 31
0.0
  0
LINE
  5
97
330
1F
100
AcDbEntity
  8
0
  6
Continuous
 62
     7
370
    25
100
AcDbLine
 10
158.0544443621
 20
-347.5070245923
 30
0.0
 11
278.0544443621
 21
-347.5070245923
 31
0.0
  0
LINE
  5
98
330
1F
100
AcDbEntity
  8
0
  6
Continuous
 62
     7
370
    25
100
AcDbLine
 10
278.0544443621
 20
-207.5070245923
 30
0.0
 11
158.0190869828
 21
-207.5070245923
 31
0.0
  0
LWPOLYLINE
  5
99
330
1F
100
AcDbEntity
  8
0
  6
Continuous
 62
     7
370
    25
100
AcDbPolyline
 90
       40
 70
   128
 43
0.0
 10
158.0190859877
 20
-207.5474200197
 10
157.9878356898
 20
-207.583106633
 10
157.6327051969
 20
-207.9894038225
 10
157.0659210742
 20
-208.6389091272
 10
156.2738306079
 20
-209.5491524606
 10
155.240200622
 20
-210.741431554
 10
153.9999541515
 20
-212.1792322128
 10
152.505695545
 20
-213.922494776
 10
150.8281079349
 20
-215.8952878061
 10
146.92635146
 20
-220.5566989805
 10
143.7046279685
 20
-224.4977219532
 10
140.280409554
 20
-228.8031156725
 10
136.6185175708
 20
-233.5770015102
 10
132.8922926085
 20
-238.6844847438
 10
129.2203760119
 20
-244.0683276911
 10
125.6803099241
 20
-249.7901872813
 10
122.3024548374
 20
-256.1026530628
 10
119.466902747
 20
-262.8444290008
 10
117.7538529627
 20
-268.7867583557
 10
116.8574033794
 20
-275.125926423
 10
116.9796134984
 20
-281.4017379691
 10
118.1183391372
 20
-287.7596176568
 10
119.3157250252
 20
-291.7365809024
 10
120.7925348901
 20
-295.5775636539
 10
124.4352677831
 20
-303.0252686778
 10
127.9011417054
 20
-308.8903284501
 10
131.5482855068
 20
-314.4067676864
 10
135.3511849491
 20
-319.7330301964
 10
139.1168448858
 20
-324.7152522408
 10
142.7660678438
 20
-329.3495541998
 10
146.2126572664
 20
-333.5921561898
 10
149.4908732992
 20
-337.5336403558
 10
152.37150975
 20
-340.9343547258
 10
153.9010107949
 20
-342.7197961274
 10
155.2215886461
 20
-344.2510741917
 10
156.336769317
 20
-345.5373692071
 10
157.1878116868
 20
-346.5149214167
 10
157.8332726887
 20
-347.2541496166
 10
158.0544443621
 20
-347.5070245923
 10
158.0544443621
 20
-347.5070245923
  0
LINE
  5
9A
330
1F
100
AcDbEntity
  8
0
  6
Continuous
 62
     7
370
    25
100
AcDbLine
 10
158.0544443621
 20
-486.0070245923
 30
0.0
 11
-1.9455556379
 21
-486.0070245923
 31
0.0
  0
LINE
  5
9B
330
1F
100
AcDbEntity
  8
0
  6
Continuous
 62
     7
370
    25
100
AcDbLine
 10
158.0544443621
 20
-69.0070245923
 30
0.0
 11
-1.9455556379
 21
-69.0070245923
 31
0.0
  0
LINE
  5
9C
330
1F
100
AcDbEntity
  8
0
  6
Continuous
 62
     7
370
    25
100
AcDbLine
 10
278.0544443621
 20
-207.5070245923
 30
0.0
 11
278.0544443621
 21
-347.5070245923
 31
0.0
  0
LINE
  5
9D
330
1F
100
AcDbEntity
  8
0
  6
Continuous
 62
     7
370
    25
100
AcDbLine
 10
158.0544443621
 20
559.2524486433
 30
0.0
 11
158.0544443621
 21
697.7524486433
 31
0.0
  0
LINE
  5
9E
330
1F
100
AcDbEntity
  8
0
  6
Continuous
 62
     7
370
    25
100
AcDbLine
 10
158.0544443621
 20
280.7524486433
 30
0.0
 11
158.0544443621
 21
419.2923769065
 31
0.0
  0
LINE
  5
9F
330
1F
100
AcDbEntity
  8
0
  6
Continuous
 62
     7
370
    25
100
AcDbLine
 10
-1.9455556379
 20
697.7524486433
 30
0.0
 11
-1.9455556379
 21
280.7524486433
 31
0.0
  0
LINE
  5
A0
330
1F
100
AcDbEntity
  8
0
  6
Continuous
 62
     7
370
    25
100
AcDbLine
 10
158.0195113471
 20
419.2524486433
 30
0.0
 11
278.0544443621
 21
419.2524486433
 31
0.0
  0
LINE
  5
A1
330
1F
100
AcDbEntity
  8
0
  6
Continuous
 62
     7
370
    25
100
AcDbLine
 10
278.0544443621
 20
559.2524486433
 30
0.0
 11
158.0544443621
 21
559.2524486433
 31
0.0
  0
SPLINE
  5
A2
330
1F
100
AcDbEntity
  8
0
  6
Continuous
 62
     7
370
    25
100
AcDbSpline
210
0.0
220
0.0
230
1.0
 70
     8
 71
     3
 72
    48
 73
    44
 74
     0
 42
0.000000001
 43
0.00000001
 40
0.0
 40
0.0
 40
0.0
 40
0.0
 40
0.0202303991247427
 40
0.0406301263699715
 40
0.061550730029819
 40
0.0826427076179689
 40
0.1028689827263156
 40
0.123225890114369
 40
0.1439567004611462
 40
0.1648010431975691
 40
0.1928305574133899
 40
0.2210765972260412
 40
0.249925269532893
 40
0.2789523587675546
 40
0.3076955198539811
 40
0.3365919349639597
 40
0.3659899682611367
 40
0.3955935917108116
 40
0.4253027064926658
 40
0.4555013787049797
 40
0.480438990200428
 40
0.5060702876667582
 40
0.5310262895087047
 40
0.5566534279503635
 40
0.5766681370496516
 40
0.5968462136995067
 40
0.6174050594793874
 40
0.6380552627457093
 40
0.6702439664600831
 40
0.7026619253629051
 40
0.7357707977309572
 40
0.7691281098246912
 40
0.7940301212996411
 40
0.81906683130456
 40
0.8445776370503456
 40
0.8702794653229684
 40
0.8904332563896893
 40
0.9107079591131381
 40
0.9313952462855591
 40
0.9522401932775506
 40
0.9723996439348664
 40
0.9927233201336674
 40
1.0
 40
1.0
 40
1.0
 40
1.0
 10
158.0544443621442
 20
559.2524486433102
 30
0.0
 10
158.0265066808569
 20
559.2205286913533
 30
0.0
 10
157.9703974803321
 20
559.1564216179468
 30
0.0
 10
157.5144604244882
 20
558.6349360347616
 30
0.0
 10
156.7824065278209
 20
557.795669515653
 30
0.0
 10
155.7675916542144
 20
556.6280820366264
 30
0.0
 10
154.5122453280788
 20
555.1766784748388
 30
0.0
 10
153.0402615567065
 20
553.4643997920231
 30
0.0
 10
151.3486314170947
 20
551.481487116438
 30
0.0
 10
149.2424595246618
 20
548.9891168623957
 30
0.0
 10
146.6771715955033
 20
545.9128805547218
 30
0.0
 10
143.6115950594697
 20
542.1630199583949
 30
0.0
 10
140.3282542504078
 20
538.0418241618729
 30
0.0
 10
136.9005924217858
 20
533.590933863207
 30
0.0
 10
133.4079474880291
 20
528.8485186228444
 30
0.0
 10
129.905628008655
 20
523.800244223802
 30
0.0
 10
126.4593897758757
 20
518.4011393045078
 30
0.0
 10
123.1917581313772
 20
512.619801910086
 30
0.0
 10
120.2800236685175
 20
506.4126725367499
 30
0.0
 10
118.1304198493425
 20
500.1381980747023
 30
0.0
 10
116.9058736315451
 20
493.8641531342896
 30
0.0
 10
116.6515211498883
 20
487.8501009183425
 30
0.0
 10
117.3460175750102
 20
481.8308349353071
 30
0.0
 10
118.7504242130732
 20
476.4510803671918
 30
0.0
 10
120.5326221363712
 20
471.6602514838805
 30
0.0
 10
122.4638894035808
 20
467.4214132275406
 30
0.0
 10
124.6249202215305
 20
463.3186554001123
 30
0.0
 10
127.3824541279549
 20
458.6167308312613
 30
0.0
 10
130.7523636310212
 20
453.4354332877252
 30
0.0
 10
134.697868071259
 20
447.8637690363828
 30
0.0
 10
138.6638068623809
 20
442.5937965437327
 30
0.0
 10
142.213073914039
 20
438.0825856967557
 30
0.0
 10
145.2882410558643
 20
434.2835970219235
 30
0.0
 10
147.910779437657
 20
431.1073272586278
 30
0.0
 10
150.3525582033664
 20
428.1971859999283
 30
0.0
 10
152.3985038264773
 20
425.7902540892578
 30
0.0
 10
154.0588066086642
 20
423.8544562057343
 30
0.0
 10
155.3791956886294
 20
422.3250325541595
 30
0.0
 10
156.4704222605706
 20
421.0676556976027
 30
0.0
 10
157.2983454155521
 20
420.1175006192319
 30
0.0
 10
157.8218919232201
 20
419.518227011536
 30
0.0
 10
158.0650075348455
 20
419.2403745496449
 30
0.0
 10
158.0290028437926
 20
419.2815272315541
 30
0.0
 10
158.019510407903
 20
419.2923769065071
 30
0.0
  0
LINE
  5
A3
330
1F
100
AcDbEntity
  8
0
  6
Continuous
 62
     7
370
    25
100
AcDbLine
 10
-1.9455556379
 20
697.7524486433
 30
0.0
 11
158.0544443621
 21
697.7524486433
 31
0.0
  0
LINE
  5
A4
330
1F
100
AcDbEntity
  8
0
  6
Continuous
 62
     7
370
    25
100
AcDbLine
 10
-1.9455556379
 20
280.7524486433
 30
0.0
 11
158.0544443621
 21
280.7524486433
 31
0.0
  0
LINE
  5
A5
330
1F
100
AcDbEntity
  8
0
  6
Continuous
 62
     7
370
    25
100
AcDbLine
 10
278.0544443621
 20
559.2524486433
 30
0.0
 11
278.0544443621
 21
419.2524486433
 31
0.0
  0
LINE
  5
A6
330
1F
100
AcDbEntity
  8
0
  6
Continuous
 62
     7
370
    25
100
AcDbLine
 10
362.5122360099
 20
32.0281995572
 30
0.0
 11
779.5122360099
 21
32.0281995572
 31
0.0
  0
LINE
  5
A7
330
1F
100
AcDbEntity
  8
0
  6
Continuous
 62
     7
370
    25
100
AcDbLine
 10
779.5122360099
 20
192.0281995572
 30
0.0
 11
362.5122360099
 21
192.0281995572
 31
0.0
  0
LINE
  5
A8
330
1F
100
AcDbEntity
  8
0
  6
Continuous
 62
     7
370
    25
100
AcDbLine
 10
779.5122360099
 20
192.0281995572
 30
0.0
 11
779.5122360099
 21
32.0281995572
 31
0.0
  0
LINE
  5
A9
330
1F
100
AcDbEntity
  8
0
  6
Continuous
 62
     7
370
    25
100
AcDbLine
 10
362.5122360099
 20
192.0281995572
 30
0.0
 11
362.5122360099
 21
32.0281995572
 31
0.0
  0
LINE
  5
AA
330
1F
100
AcDbEntity
  8
0
  6
Continuous
 62
     7
370
    25
100
AcDbLine
 10
-88.0142786427
 20
192.0281995572
 30
0.0
 11
-505.0142786427
 21
192.0281995572
 31
0.0
  0
LINE
  5
AB
330
1F
100
AcDbEntity
  8
0
  6
Continuous
 62
     7
370
    25
100
AcDbLine
 10
-505.0142786427
 20
32.0281995572
 30
0.0
 11
-88.0142786427
 21
32.0281995572
 31
0.0
  0
CIRCLE
  5
AC
330
1F
100
AcDbEntity
  8
0
  6
Continuous
 62
     7
370
    25
100
AcDbCircle
 10
-296.5142786427
 20
112.0281995572
 30
0.0
 40
57.30000000000001
  0
CIRCLE
  5
AD
330
1F
100
AcDbEntity
  8
0
  6
Continuous
 62
     7
370
    25
100
AcDbCircle
 10
-296.5142786427
 20
112.0281995572
 30
0.0
 40
70.00000000000003
  0
LINE
  5
AE
330
1F
100
AcDbEntity
  8
0
  6
Continuous
 62
     7
370
    25
100
AcDbLine
 10
-505.0142786427
 20
112.0281995572
 30
0.0
 11
-505.0142786427
 21
192.0281995572
 31
0.0
  0
LINE
  5
AF
330
1F
100
AcDbEntity
  8
0
  6
Continuous
 62
     7
370
    25
100
AcDbLine
 10
-505.0142786427
 20
32.0281995572
 30
0.0
 11
-505.0142786427
 21
112.0281995572
 31
0.0
  0
LINE
  5
B0
330
1F
100
AcDbEntity
  8
0
  6
Continuous
 62
     7
370
    25
100
AcDbLine
 10
-88.0142786427
 20
112.0281995572
 30
0.0
 11
-88.0142786427
 21
192.0281995572
 31
0.0
  0
LINE
  5
B1
330
1F
100
AcDbEntity
  8
0
  6
Continuous
 62
     7
370
    25
100
AcDbLine
 10
-88.0142786427
 20
32.0281995572
 30
0.0
 11
-88.0142786427
 21
112.0281995572
 31
0.0
  0
INSERT
  5
BD
330
1F
100
AcDbEntity
  8
FORMAT
100
AcDbBlockReference
  2
SW_CENTERMARKSYMBOL_1
 10
-296.5142786427
 20
112.0281995572
 30
0.0
  0
LINE
  5
BE
330
1F
100
AcDbEntity
  8
0
  6
Continuous
 62
     7
370
    25
100
AcDbLine
 10
579.9298260992
 20
-171.9046921622
 30
0.0
 11
462.4939987876
 21
-104.1104320966
 31
0.0
  0
LINE
  5
BF
330
1F
100
AcDbEntity
  8
0
  6
Continuous
 62
     7
370
    25
100
AcDbLine
 10
757.3575265424
 20
-274.3315234117
 30
0.0
 11
719.9412044549
 21
-252.7315404391
 31
0.0
  0
LINE
  5
C0
330
1F
100
AcDbEntity
  8
0
  6
Continuous
 62
     7
370
    25
100
AcDbLine
 10
382.5005001767
 20
-242.6782500775
 30
0.0
 11
677.3640279315
 21
-412.8993413926
 31
0.0
  0
LINE
  5
C1
330
1F
100
AcDbEntity
  8
0
  6
Continuous
 62
     7
370
    25
100
AcDbLine
 10
649.3451078795
 20
-293.4857995133
 30
0.0
 11
746.3475252391
 21
-237.487495929
 31
0.0
  0
LINE
  5
C2
330
1F
100
AcDbEntity
  8
0
  6
Continuous
 62
     7
370
    25
100
AcDbLine
 10
676.3532139546
 20
-116.2406551957
 30
0.0
 11
579.3518871063
 21
-172.2383292412
 31
0.0
  0
SPLINE
  5
C3
330
1F
100
AcDbEntity
  8
0
  6
Continuous
 62
     7
370
    25
100
AcDbSpline
210
0.0
220
0.0
230
1.0
 70
     8
 71
     3
 72
    37
 73
    33
 74
     0
 42
0.000000001
 43
0.00000001
 40
0.0
 40
0.0
 40
0.0
 40
0.0
 40
0.0267929698720653
 40
0.0538101964779054
 40
0.0815172674114773
 40
0.1094513045294308
 40
0.1362388125889845
 40
0.1631993289373478
 40
0.1906550392087963
 40
0.218261110818967
 40
0.2553831628992254
 40
0.2927919796526195
 40
0.3309989177955858
 40
0.369442149812044
 40
0.4075093497851114
 40
0.4457795180936269
 40
0.4847140252960029
 40
0.523920814361327
 40
0.5632673152567251
 40
0.6032621818815422
 40
0.6362893440921796
 40
0.6702352181484862
 40
0.7032867363788257
 40
0.7372271022579564
 40
0.7637344140805645
 40
0.7906309263615137
 40
0.8176860272065836
 40
0.8450349821409378
 40
0.8876654296927738
 40
0.9305995008814559
 40
0.9744486120327199
 40
1.0
 40
1.0
 40
1.0
 40
1.0
 10
577.0000811714143
 20
-197.274278357895
 30
0.0
 10
577.0028970620093
 20
-198.6087514689821
 30
0.0
 10
577.0085524121591
 20
-201.2888672099755
 30
0.0
 10
577.0549022203387
 20
-205.6403615677993
 30
0.0
 10
577.1307129926959
 20
-210.2227112586403
 30
0.0
 10
577.2387395379681
 20
-214.9454854837861
 30
0.0
 10
577.3773729387982
 20
-219.7270828280942
 30
0.0
 10
577.5472871001645
 20
-224.5463315095364
 30
0.0
 10
577.7532549565925
 20
-229.448316551397
 30
0.0
 10
578.0263384369695
 20
-234.9634945899721
 30
0.0
 10
578.3876335002541
 20
-241.0473577576213
 30
0.0
 10
578.8714953995451
 20
-247.6755721914338
 30
0.0
 10
579.4639483428301
 20
-254.2526821419616
 30
0.0
 10
580.1874801326971
 20
-260.7026967005028
 30
0.0
 10
581.0712011914392
 20
-266.9627882858242
 30
0.0
 10
582.1643563984877
 20
-273.0282608525322
 30
0.0
 10
583.5452416754957
 20
-278.8946461172648
 30
0.0
 10
585.3227000563439
 20
-284.5028498075144
 30
0.0
 10
587.6528961473588
 20
-289.7653263281741
 30
0.0
 10
590.5696201392709
 20
-294.2447088512879
 30
0.0
 10
594.140154962884
 20
-297.8668903308441
 30
0.0
 10
598.2128775743633
 20
-300.5393133047963
 30
0.0
 10
602.9602249745134
 20
-302.4000511073932
 30
0.0
 10
607.757349695938
 20
-303.365321028764
 30
0.0
 10
612.4144019556641
 20
-303.7099228624896
 30
0.0
 10
616.7775432287975
 20
-303.6341547388135
 30
0.0
 10
621.2067536820983
 20
-303.2095946712201
 30
0.0
 10
626.4714068648144
 20
-302.3335533424949
 30
0.0
 10
632.521612299285
 20
-300.8264544808792
 30
0.0
 10
639.2366210940672
 20
-298.4675230224889
 30
0.0
 10
644.8863800727436
 20
-296.0074119333669
 30
0.0
 10
648.1149697963061
 20
-294.1113235365276
 30
0.0
 10
649.3036492678041
 20
-293.413235037695
 30
0.0
  0
SPLINE
  5
C4
330
1F
100
AcDbEntity
  8
0
  6
Continuous
 62
     7
370
    25
100
AcDbSpline
210
0.0
220
0.0
230
1.0
 70
     8
 71
     3
 72
    17
 73
    13
 74
     0
 42
0.000000001
 43
0.00000001
 40
0.0
 40
0.0
 40
0.0
 40
0.0
 40
0.066366411157217
 40
0.1958014240529903
 40
0.328887633052548
 40
0.4635239484250867
 40
0.5454992938517567
 40
0.6285057978628047
 40
0.7120673497912792
 40
0.7968071473711456
 40
0.8977789734629267
 40
1.0
 40
1.0
 40
1.0
 40
1.0
 10
579.3900945252879
 20
-172.3043760760064
 30
0.0
 10
579.2671265129509
 20
-172.3593029961243
 30
0.0
 10
578.9043328721812
 20
-172.5213543861332
 30
0.0
 10
578.4473185291562
 20
-173.4990762879356
 30
0.0
 10
577.9799439742239
 20
-175.2908488673073
 30
0.0
 10
577.6624423011623
 20
-177.6057956795272
 30
0.0
 10
577.4426441908837
 20
-180.0970325417471
 30
0.0
 10
577.2928588401771
 20
-182.496976694371
 30
0.0
 10
577.1728321685853
 20
-185.2618208869574
 30
0.0
 10
577.0783110272671
 20
-188.59281128289
 30
0.0
 10
577.0129340239507
 20
-192.5414384384197
 30
0.0
 10
577.0043829791246
 20
-195.6902123150366
 30
0.0
 10
577.0000811714143
 20
-197.274278357895
 30
0.0
  0
LWPOLYLINE
  5
C5
330
1F
100
AcDbEntity
  8
0
  6
Continuous
 62
     7
370
    25
100
AcDbPolyline
 90
       95
 70
   128
 43
0.0
 10
479.0657919771
 20
-140.7380166142
 10
478.9394675556
 20
-136.4478292395
 10
478.5610584866
 20
-132.3226539557
 10
477.9322548369
 20
-128.3809147969
 10
477.0558649963
 20
-124.6402165271
 10
475.9358031344
 20
-121.1172660129
 10
474.5770717196
 20
-117.8277976063
 10
472.985739176
 20
-114.786502872
 10
471.1689127812
 20
-112.0069649704
 10
469.1347069229
 20
-109.5015979925
 10
466.8922068583
 20
-107.2815915155
 10
464.4514281369
 20
-105.3568606271
 10
461.8232718692
 20
-103.7360016429
 10
459.019476039
 20
-102.4262537125
 10
456.052563079
 20
-101.433466488
 10
452.9357839428
 20
-100.7620739982
 10
449.6830589227
 20
-100.4150748451
 10
446.3089154782
 20
-100.3940188109
 10
442.8284233529
 20
-100.6989999371
 10
439.2571272697
 20
-101.328656104
 10
435.6109775037
 20
-102.2801751142
 10
431.906258645
 20
-103.5493072529
 10
428.1595168674
 20
-105.1303842678
 10
424.387486029
 20
-107.0163446852
 10
420.6070129353
 20
-109.198765348
 10
416.834982097
 20
-111.6678990358
 10
413.0882403193
 20
-114.4127179982
 10
409.3835214606
 20
-117.4209632072
 10
405.7373716946
 20
-120.6791991096
 10
402.1660756114
 20
-124.1728736329
 10
398.6855834861
 20
-127.8863831785
 10
395.3114400416
 20
-131.8031423113
 10
392.0587150215
 20
-135.9056578343
 10
388.9419358853
 20
-140.1756069173
 10
385.9750229253
 20
-144.593918931
 10
383.1712270951
 20
-149.1408606214
 10
380.5430708274
 20
-153.7961242433
 10
378.102292106
 20
-158.5389182591
 10
375.8597920414
 20
-163.3480601994
 10
373.8255861831
 20
-168.202071269
 10
372.0087597883
 20
-173.079272276
 10
370.4174272448
 20
-177.9578804569
 10
369.0586958299
 20
-182.816106763
 10
367.938633968
 20
-187.6322531765
 10
367.0622441274
 20
-192.3848096183
 10
366.4334404777
 20
-197.0525500177
 10
366.0550314087
 20
-201.6146271128
 10
365.9287069872
 20
-206.05066556
 10
366.0550314087
 20
-210.3408529346
 10
366.4334404777
 20
-214.4660282184
 10
367.0622441274
 20
-218.4077673772
 10
367.938633968
 20
-222.148465647
 10
369.0586958299
 20
-225.6714161613
 10
370.4174272448
 20
-228.9608845678
 10
372.0087597883
 20
-232.0021793022
 10
373.8255861831
 20
-234.7817172038
 10
375.8597920414
 20
-237.2870841817
 10
378.102292106
 20
-239.5070906587
 10
380.5430708274
 20
-241.431821547
 10
383.1712270951
 20
-243.0526805312
 10
385.9750229253
 20
-244.3624284617
 10
388.9419358853
 20
-245.3552156862
 10
392.0587150215
 20
-246.0266081759
 10
395.3114400416
 20
-246.3736073291
 10
398.6855834861
 20
-246.3946633633
 10
402.1660756114
 20
-246.089682237
 10
405.7373716946
 20
-245.4600260702
 10
409.3835214606
 20
-244.5085070599
 10
413.0882403193
 20
-243.2393749213
 10
416.834982097
 20
-241.6582979064
 10
420.6070129353
 20
-239.772337489
 10
424.387486029
 20
-237.5899168261
 10
428.1595168674
 20
-235.1207831383
 10
431.906258645
 20
-232.375964176
 10
435.6109775037
 20
-229.367718967
 10
439.2571272697
 20
-226.1094830646
 10
442.8284233529
 20
-222.6158085413
 10
446.3089154782
 20
-218.9022989957
 10
449.6830589227
 20
-214.9855398628
 10
452.9357839428
 20
-210.8830243398
 10
456.052563079
 20
-206.6130752569
 10
459.019476039
 20
-202.1947632432
 10
461.8232718692
 20
-197.6478215527
 10
464.451428137
 20
-192.9925579309
 10
466.8922068583
 20
-188.2497639151
 10
469.1347069229
 20
-183.4406219747
 10
471.1689127812
 20
-178.5866109052
 10
472.985739176
 20
-173.7094098981
 10
474.5770717196
 20
-168.8308017173
 10
475.9358031344
 20
-163.9725754111
 10
477.0558649963
 20
-159.1564289976
 10
477.9322548369
 20
-154.4038725558
 10
478.5610584866
 20
-149.7361321565
 10
478.9394675556
 20
-145.1740550613
 10
479.0657919771
 20
-140.7380166142
  0
LWPOLYLINE
  5
C6
330
1F
100
AcDbEntity
  8
0
  6
Continuous
 62
     7
370
    25
100
AcDbPolyline
 90
       13
 70
   128
 43
0.0
 10
773.9293197319
 20
-310.9591079292
 10
773.8029953104
 20
-306.6689205546
 10
773.4245862414
 20
-302.5437452708
 10
772.7957825917
 20
-298.602006112
 10
771.9193927511
 20
-294.8613078422
 10
770.7993308892
 20
-291.3383573279
 10
769.4405994743
 20
-288.0488889214
 10
767.8492669308
 20
-285.007594187
 10
766.032440536
 20
-282.2280562854
 10
763.9982346777
 20
-279.7226893075
 10
761.7557346131
 20
-277.5026828305
 10
759.3149558917
 20
-275.5779519422
 10
757.3575265424
 20
-274.3315234117
  0
LWPOLYLINE
  5
C7
330
1F
100
AcDbEntity
  8
0
  6
Continuous
 62
     7
370
    25
100
AcDbPolyline
 90
       37
 70
   128
 43
0.0
 10
677.3640279315
 20
-412.8993413926
 10
678.0347548499
 20
-413.2737718463
 10
680.8385506801
 20
-414.5835197767
 10
683.8054636401
 20
-415.5763070012
 10
686.9222427763
 20
-416.247699491
 10
690.1749677964
 20
-416.5946986441
 10
693.5491112409
 20
-416.6157546783
 10
697.0296033662
 20
-416.3107735521
 10
700.6008994494
 20
-415.6811173852
 10
704.2470492154
 20
-414.729598375
 10
707.9517680741
 20
-413.4604662363
 10
711.6985098517
 20
-411.8793892214
 10
715.4705406901
 20
-409.993428804
 10
719.2510137838
 20
-407.8110081412
 10
723.0230446221
 20
-405.3418744534
 10
726.7697863998
 20
-402.597055491
 10
730.4745052585
 20
-399.588810282
 10
734.1206550245
 20
-396.3305743796
 10
737.6919511077
 20
-392.8368998563
 10
741.172443233
 20
-389.1233903107
 10
744.5465866775
 20
-385.2066311779
 10
747.7993116976
 20
-381.1041156549
 10
750.9160908338
 20
-376.8341665719
 10
753.8830037938
 20
-372.4158545582
 10
756.686799624
 20
-367.8689128678
 10
759.3149558917
 20
-363.2136492459
 10
761.7557346131
 20
-358.4708552301
 10
763.9982346777
 20
-353.6617132898
 10
766.032440536
 20
-348.8077022202
 10
767.8492669308
 20
-343.9305012132
 10
769.4405994743
 20
-339.0518930323
 10
770.7993308892
 20
-334.1936667262
 10
771.9193927511
 20
-329.3775203127
 10
772.7957825917
 20
-324.6249638709
 10
773.4245862414
 20
-319.9572234715
 10
773.8029953104
 20
-315.3951463764
 10
773.9293197319
 20
-310.9591079292
  0
LWPOLYLINE
  5
C8
330
1F
100
AcDbEntity
  8
0
  6
Continuous
 62
     7
370
    25
100
AcDbPolyline
 90
       86
 70
   128
 43
0.0
 10
468.7420329718
 20
-146.6977958305
 10
468.6157464862
 20
-142.8268438473
 10
468.2375767627
 20
-139.1228409341
 10
467.6095892329
 20
-135.6060170704
 10
466.7352137471
 20
-132.2955799285
 10
465.619225841
 20
-129.2096099682
 10
464.2677206535
 20
-126.3649616873
 10
462.6880796373
 20
-123.7771715681
 10
460.8889302437
 20
-121.4603732231
 10
458.8800988031
 20
-119.4272202013
 10
456.6725568559
 20
-117.6888168796
 10
454.2783612309
 20
-116.2546578139
 10
451.7105881943
 20
-115.1325758839
 10
448.9832620321
 20
-114.3286995119
 10
446.1112784538
 20
-113.8474191919
 10
443.110323238
 20
-113.6913635101
 10
439.9967865614
 20
-113.8613847886
 10
436.7876734816
 20
-114.35655443
 10
433.5005110615
 20
-115.1741679895
 10
430.1532526422
 20
-116.3097599453
 10
426.7641797885
 20
-117.7571280881
 10
423.3518024411
 20
-119.5083673948
 10
419.9347578218
 20
-121.5539132038
 10
416.5317086434
 20
-123.882593453
 10
413.1612411803
 20
-126.4816896985
 10
409.8417637572
 20
-129.337006578
 10
406.5914062084
 20
-132.4329493407
 10
403.42792086
 20
-135.7526090209
 10
400.3685855718
 20
-139.2778547885
 10
397.4301093723
 20
-142.9894329737
 10
394.6285411995
 20
-146.8670722235
 10
391.9791822472
 20
-150.8895942168
 10
389.4965023954
 20
-155.0350293336
 10
387.1940611805
 20
-159.2807366447
 10
385.0844337379
 20
-163.603527569
 10
383.1791421212
 20
-167.9797925216
 10
381.4885923725
 20
-172.3856298609
 10
380.0220176883
 20
-176.7969764311
 10
378.787427991
 20
-181.189738987
 10
377.7915661813
 20
-185.5399257827
 10
377.0398713112
 20
-189.8237776066
 10
376.5364488773
 20
-194.0178975455
 10
376.2840483984
 20
-198.0993787707
 10
376.2840483984
 20
-202.0459296471
 10
376.5364488773
 20
-205.8359954823
 10
377.0398713112
 20
-209.448876251
 10
377.7915661813
 20
-212.8648396514
 10
378.787427991
 20
-216.0652288758
 10
380.0220176883
 20
-219.0325645082
 10
381.4885923725
 20
-221.7506399903
 10
383.1791421212
 20
-224.2046101364
 10
385.0844337379
 20
-226.3810722125
 10
387.1940611805
 20
-228.2681391375
 10
389.4965023954
 20
-229.8555044062
 10
391.9791822472
 20
-231.13449838
 10
394.6285411995
 20
-232.0981356373
 10
397.4301093723
 20
-232.7411531256
 10
400.3685855718
 20
-233.0600389063
 10
403.42792086
 20
-233.0530513358
 10
406.5914062084
 20
-232.720228578
 10
409.8417637572
 20
-232.0633883952
 10
413.1612411803
 20
-231.0861182208
 10
416.5317086434
 20
-229.7937555655
 10
419.9347578218
 20
-228.1933588661
 10
423.3518024411
 20
-226.2936689343
 10
426.7641797885
 20
-224.1050612177
 10
430.1532526422
 20
-221.6394891329
 10
433.5005110615
 20
-218.9104187795
 10
436.7876734816
 20
-215.9327553934
 10
439.9967865614
 20
-212.7227619395
 10
443.1103232381
 20
-209.2979702888
 10
446.1112784538
 20
-205.6770854659
 10
448.9832620321
 20
-201.8798834878
 10
451.7105881943
 20
-197.9271033552
 10
454.2783612309
 20
-193.8403337823
 10
456.6725568559
 20
-189.6418952874
 10
458.8800988031
 20
-185.3547182856
 10
460.8889302437
 20
-181.0022178511
 10
462.6880796373
 20
-176.6081658319
 10
464.2677206535
 20
-172.1965610164
 10
465.619225841
 20
-167.7914980603
 10
466.7352137471
 20
-163.4170358899
 10
467.6095892329
 20
-159.0970663007
 10
468.2375767627
 20
-154.8551834684
 10
468.6157464862
 20
-150.7145550862
 10
468.7420329718
 20
-146.6977958305
  0
LWPOLYLINE
  5
C9
330
1F
100
AcDbEntity
  8
0
  6
Continuous
 62
     7
370
    25
100
AcDbPolyline
 90
       89
 70
   128
 43
0.0
 10
760.8478442799
 20
-205.4383594761
 10
760.7217303873
 20
-201.2879606558
 10
760.3440313571
 20
-197.0131033155
 10
759.7166718569
 20
-192.6355711483
 10
758.8428487669
 20
-188.1776710548
 10
757.7270148893
 20
-183.662119472
 10
756.3748562578
 20
-179.1119266156
 10
754.7932631628
 20
-174.5502792256
 10
752.9902950402
 20
-170.0004224113
 10
750.9751394023
 20
-165.4855412001
 10
748.7580650202
 20
-161.0286423919
 10
746.3503695969
 20
-156.6524373213
 10
743.7643221962
 20
-152.3792261263
 10
741.0131007231
 20
-148.2307841116
 10
738.1107247715
 20
-144.2282507867
 10
735.0719841839
 20
-140.3920221441
 10
731.9123636859
 20
-136.7416467256
 10
728.6479639792
 20
-133.2957260076
 10
725.2954196965
 20
-130.0718196121
 10
721.871814635
 20
-127.0863558272
 10
718.3945947013
 20
-124.354547892
 10
714.8814790112
 20
-121.8903164736
 10
711.3503695969
 20
-119.7062187303
 10
707.8192601825
 20
-117.8133843237
 10
704.3061444924
 20
-116.2214587041
 10
700.8289245587
 20
-114.9385539594
 10
697.4053194972
 20
-113.9712074782
 10
694.0527752145
 20
-113.3243486364
 10
690.7883755078
 20
-113.0012736785
 10
687.6287550098
 20
-113.0036289202
 10
684.5900144222
 20
-113.33140236
 10
681.6876384706
 20
-113.9829237394
 10
678.9364169975
 20
-114.9548730548
 10
676.3503695969
 20
-116.2422974753
 10
673.9426741735
 20
-117.8386365813
 10
671.7255997915
 20
-119.7357557944
 10
669.7104441535
 20
-121.9239878301
 10
667.9074760309
 20
-124.3921819594
 10
666.3258829359
 20
-127.127760831
 10
664.9737243044
 20
-130.1167845618
 10
663.8578904268
 20
-133.3440217721
 10
662.9840673368
 20
-136.7930272009
 10
662.3567078366
 20
-140.446225507
 10
661.9790088064
 20
-144.2850008292
 10
661.8528949138
 20
-148.2897916485
 10
661.9790088064
 20
-152.4401904689
 10
662.3567078366
 20
-156.7150478092
 10
662.9840673368
 20
-161.0925799763
 10
663.8578904268
 20
-165.5504800698
 10
664.9737243044
 20
-170.0660316527
 10
666.3258829359
 20
-174.616224509
 10
667.9074760309
 20
-179.1778718991
 10
669.7104441535
 20
-183.7277287134
 10
671.7255997915
 20
-188.2426099245
 10
673.9426741735
 20
-192.6995087327
 10
676.3503695969
 20
-197.0757138033
 10
678.9364169975
 20
-201.3489249984
 10
681.6876384706
 20
-205.4973670131
 10
684.5900144222
 20
-209.4999003379
 10
687.6287550098
 20
-213.3361289805
 10
690.7883755078
 20
-216.986504399
 10
694.0527752145
 20
-220.4324251171
 10
697.4053194972
 20
-223.6563315126
 10
700.8289245587
 20
-226.6417952974
 10
704.3061444924
 20
-229.3736032326
 10
707.8192601825
 20
-231.8378346511
 10
711.3503695969
 20
-234.0219323943
 10
714.8814790112
 20
-235.9147668009
 10
718.3945947013
 20
-237.5066924206
 10
721.871814635
 20
-238.7895971653
 10
725.2954196965
 20
-239.7569436464
 10
728.6479639792
 20
-240.4038024882
 10
731.9123636859
 20
-240.7268774462
 10
735.0719841839
 20
-240.7245222044
 10
738.1107247715
 20
-240.3967487647
 10
741.0131007231
 20
-239.7452273853
 10
743.7643221962
 20
-238.7732780699
 10
746.3503695969
 20
-237.4858536493
 10
748.7580650202
 20
-235.8895145434
 10
750.9751394023
 20
-233.9923953303
 10
752.9902950402
 20
-231.8041632946
 10
754.7932631628
 20
-229.3359691652
 10
756.3748562578
 20
-226.6003902937
 10
757.7270148893
 20
-223.6113665629
 10
758.8428487669
 20
-220.3841293525
 10
759.7166718569
 20
-216.9351239238
 10
760.3440313571
 20
-213.2819256177
 10
760.7217303873
 20
-209.4431502954
 10
760.8478442799
 20
-205.4383594761
  0
LWPOLYLINE
  5
CA
330
1F
100
AcDbEntity
  8
0
  6
Continuous
 62
     7
370
    25
100
AcDbPolyline
 90
       81
 70
   128
 43
0.0
 10
751.8675881588
 20
-200.254167966
 10
751.742687096
 20
-196.5111365387
 10
751.3687539639
 20
-192.6469744472
 10
750.7480941847
 20
-188.6855055357
 10
749.8845343324
 20
-184.6511535774
 10
748.7833985406
 20
-180.5687916937
 10
747.4514756776
 20
-176.463589003
 10
745.8969774907
 20
-172.3608554452
 10
744.1294879783
 20
-168.2858857369
 10
742.1599043009
 20
-164.2638034214
 10
740.0003695969
 20
-160.3194059736
 10
737.6641981157
 20
-156.4770119155
 10
735.1657931315
 20
-152.7603108842
 10
732.5205581418
 20
-149.1922175775
 10
729.7448018999
 20
-145.794730477
 10
726.855637866
 20
-142.5887962207
 10
723.8708786973
 20
-139.5941804591
 10
720.8089264265
 20
-136.8293459943
 10
717.6886590075
 20
-134.3113389503
 10
714.5293139266
 20
-132.0556836776
 10
711.3503695969
 20
-130.0762870413
 10
708.1714252671
 20
-128.3853526797
 10
705.0120801862
 20
-126.9933057654
 10
701.8918127672
 20
-125.9087287307
 10
698.8298604964
 20
-125.1383083536
 10
695.8451013277
 20
-124.6867945319
 10
692.9559372938
 20
-124.5569709984
 10
690.1801810519
 20
-124.7496381585
 10
687.5349460622
 20
-125.2636081549
 10
685.036541078
 20
-126.0957121918
 10
682.7003695969
 20
-127.2408200711
 10
680.5408348928
 20
-128.6918718219
 10
678.5712512154
 20
-130.4399212277
 10
676.803761703
 20
-132.4741909825
 10
675.2492635162
 20
-134.7821391369
 10
673.9173406532
 20
-137.349536423
 10
672.8162048613
 20
-140.1605539828
 10
671.952645009
 20
-143.1978609583
 10
671.3319852298
 20
-146.442731342
 10
670.9580520978
 20
-149.875159429
 10
670.8331510349
 20
-153.4739831586
 10
670.9580520978
 20
-157.2170145859
 10
671.3319852298
 20
-161.0811766774
 10
671.952645009
 20
-165.0426455889
 10
672.8162048613
 20
-169.0769975472
 10
673.9173406532
 20
-173.159359431
 10
675.2492635162
 20
-177.2645621216
 10
676.803761703
 20
-181.3672956794
 10
678.5712512154
 20
-185.4422653878
 10
680.5408348928
 20
-189.4643477033
 10
682.7003695969
 20
-193.408745151
 10
685.036541078
 20
-197.2511392091
 10
687.5349460622
 20
-200.9678402404
 10
690.1801810519
 20
-204.5359335472
 10
692.9559372938
 20
-207.9334206476
 10
695.8451013277
 20
-211.139354904
 10
698.8298604964
 20
-214.1339706656
 10
701.8918127672
 20
-216.8988051303
 10
705.0120801862
 20
-219.4168121744
 10
708.1714252671
 20
-221.672467447
 10
711.3503695969
 20
-223.6518640834
 10
714.5293139266
 20
-225.342798445
 10
717.6886590075
 20
-226.7348453592
 10
720.8089264265
 20
-227.8194223939
 10
723.8708786973
 20
-228.5898427711
 10
726.855637866
 20
-229.0413565928
 10
729.7448018999
 20
-229.1711801263
 10
732.5205581418
 20
-228.9785129662
 10
735.1657931315
 20
-228.4645429697
 10
737.6641981157
 20
-227.6324389328
 10
740.0003695969
 20
-226.4873310535
 10
742.1599043009
 20
-225.0362793027
 10
744.1294879783
 20
-223.288229897
 10
745.8969774907
 20
-221.2539601422
 10
747.4514756776
 20
-218.9460119878
 10
748.7833985406
 20
-216.3786147017
 10
749.8845343324
 20
-213.5675971419
 10
750.7480941847
 20
-210.5302901663
 10
751.3687539639
 20
-207.2854197826
 10
751.742687096
 20
-203.8529916957
 10
751.8675881588
 20
-200.254167966
  0
ENDSEC
  0
SECTION
  2
OBJECTS
  0
DICTIONARY
  5
C
330
0
100
AcDbDictionary
281
     1
  3
ACAD_GROUP
350
D
  3
ACAD_LAYOUT
350
1A
  3
ACAD_MLINESTYLE
350
17
  3
ACAD_PLOTSETTINGS
350
19
  3
ACAD_PLOTSTYLENAME
350
E
  3
ACAD_SCALELIST
350
47
  0
DICTIONARY
  5
D
102
{ACAD_REACTORS
330
C
102
}
330
C
100
AcDbDictionary
281
     1
  0
DICTIONARY
  5
1A
102
{ACAD_REACTORS
330
C
102
}
330
C
100
AcDbDictionary
281
     1
  3
Layout1
350
1E
  3
Layout2
350
26
  3
Model
350
22
  0
DICTIONARY
  5
17
102
{ACAD_REACTORS
330
C
102
}
330
C
100
AcDbDictionary
281
     1
  3
Standard
350
18
  0
DICTIONARY
  5
19
102
{ACAD_REACTORS
330
C
102
}
330
C
100
AcDbDictionary
281
     1
  0
ACDBDICTIONARYWDFLT
  5
E
102
{ACAD_REACTORS
330
C
102
}
330
C
100
AcDbDictionary
281
     1
  3
Normal
350
F
100
AcDbDictionaryWithDefault
340
F
  0
DICTIONARY
  5
47
102
{ACAD_REACTORS
330
C
102
}
330
C
100
AcDbDictionary
281
     1
  3
A0
350
48
  3
A1
350
49
  3
A2
350
4A
  3
A3
350
4B
  3
A4
350
4C
  3
A5
350
4D
  3
A6
350
4E
  3
A7
350
4F
  3
A8
350
50
  3
A9
350
51
  3
B0
350
52
  3
B1
350
53
  3
B2
350
54
  3
B3
350
55
  3
B4
350
56
  3
B5
350
57
  3
B6
350
58
  3
B7
350
59
  3
B8
350
5A
  3
B9
350
5B
  3
C0
350
5C
  3
C1
350
5D
  3
C2
350
5E
  3
C3
350
5F
  3
C4
350
60
  3
C5
350
61
  3
C6
350
62
  3
C7
350
63
  3
C8
350
64
  3
C9
350
65
  3
D0
350
66
  3
D1
350
67
  3
D2
350
68
  0
LAYOUT
  5
1E
102
{ACAD_REACTORS
330
1A
102
}
330
1A
100
AcDbPlotSettings
  1

  2
none_device
  4

  6

 40
0.0
 41
0.0
 42
0.0
 43
0.0
 44
0.0
 45
0.0
 46
0.0
 47
0.0
 48
0.0
 49
0.0
140
0.0
141
0.0
142
1.0
143
1.0
 70
   688
 72
     1
 73
     0
 74
     5
  7

 75
    16
147
1.0
148
0.0
149
0.0
100
AcDbLayout
  1
Layout1
 70
     1
 71
     1
 10
0.0
 20
0.0
 11
420.0
 21
297.0
 12
0.0
 22
0.0
 32
0.0
 14
1.0000000000E+20
 24
1.0000000000E+20
 34
1.0000000000E+20
 15
-1.0000000000E+20
 25
-1.0000000000E+20
 35
-1.0000000000E+20
146
0.0
 13
0.0
 23
0.0
 33
0.0
 16
1.0
 26
0.0
 36
0.0
 17
0.0
 27
1.0
 37
0.0
 76
     0
330
1B
  0
LAYOUT
  5
26
102
{ACAD_REACTORS
330
1A
102
}
330
1A
100
AcDbPlotSettings
  1

  2
none_device
  4

  6

 40
0.0
 41
0.0
 42
0.0
 43
0.0
 44
0.0
 45
0.0
 46
0.0
 47
0.0
 48
0.0
 49
0.0
140
0.0
141
0.0
142
1.0
143
1.0
 70
   688
 72
     1
 73
     0
 74
     5
  7

 75
    16
147
1.0
148
0.0
149
0.0
100
AcDbLayout
  1
Layout2
 70
     1
 71
     2
 10
0.0
 20
0.0
 11
0.0
 21
0.0
 12
0.0
 22
0.0
 32
0.0
 14
0.0
 24
0.0
 34
0.0
 15
0.0
 25
0.0
 35
0.0
146
0.0
 13
0.0
 23
0.0
 33
0.0
 16
1.0
 26
0.0
 36
0.0
 17
0.0
 27
1.0
 37
0.0
 76
     0
330
23
  0
LAYOUT
  5
22
102
{ACAD_REACTORS
330
1A
102
}
330
1A
100
AcDbPlotSettings
  1

  2
none_device
  4
Letter_(8.50_x_11.00_Inches)
  6

 40
6.35
 41
6.35
 42
6.35000508
 43
6.35000508
 44
215.9
 45
279.4
 46
0.0
 47
0.0
 48
0.0
 49
0.0
140
0.0
141
0.0
142
1.0
143
1.0
 70
  1712
 72
     1
 73
     0
 74
     0
  7

 75
     0
147
1.0
148
0.0
149
0.0
100
AcDbLayout
  1
Model
 70
     1
 71
     0
 10
0.0
 20
0.0
 11
279.4
 21
215.9
 12
0.0
 22
0.0
 32
0.0
 14
0.0
 24
0.0
 34
0.0
 15
279.4
 25
215.9
 35
0.0
146
0.0
 13
0.0
 23
0.0
 33
0.0
 16
1.0
 26
0.0
 36
0.0
 17
0.0
 27
1.0
 37
0.0
 76
     0
330
1F
331
29
  0
MLINESTYLE
  5
18
102
{ACAD_REACTORS
330
17
102
}
330
17
100
AcDbMlineStyle
  2
Standard
 70
     0
  3

 62
   256
 51
90.0
 52
90.0
 71
     2
 49
0.5
 62
   256
  6
BYLAYER
 49
-0.5
 62
   256
  6
BYLAYER
  0
ACDBPLACEHOLDER
  5
F
102
{ACAD_REACTORS
330
E
102
}
330
E
  0
SCALE
  5
48
102
{ACAD_REACTORS
330
47
102
}
330
47
100
AcDbScale
 70
     0
300
1:1
140
1.0
141
1.0
290
     1
  0
SCALE
  5
49
102
{ACAD_REACTORS
330
47
102
}
330
47
100
AcDbScale
 70
     0
300
1:2
140
1.0
141
2.0
290
     0
  0
SCALE
  5
4A
102
{ACAD_REACTORS
330
47
102
}
330
47
100
AcDbScale
 70
     0
300
1:4
140
1.0
141
4.0
290
     0
  0
SCALE
  5
4B
102
{ACAD_REACTORS
330
47
102
}
330
47
100
AcDbScale
 70
     0
300
1:5
140
1.0
141
5.0
290
     0
  0
SCALE
  5
4C
102
{ACAD_REACTORS
330
47
102
}
330
47
100
AcDbScale
 70
     0
300
1:8
140
1.0
141
8.0
290
     0
  0
SCALE
  5
4D
102
{ACAD_REACTORS
330
47
102
}
330
47
100
AcDbScale
 70
     0
300
1:10
140
1.0
141
10.0
290
     0
  0
SCALE
  5
4E
102
{ACAD_REACTORS
330
47
102
}
330
47
100
AcDbScale
 70
     0
300
1:16
140
1.0
141
16.0
290
     0
  0
SCALE
  5
4F
102
{ACAD_REACTORS
330
47
102
}
330
47
100
AcDbScale
 70
     0
300
1:20
140
1.0
141
20.0
290
     0
  0
SCALE
  5
50
102
{ACAD_REACTORS
330
47
102
}
330
47
100
AcDbScale
 70
     0
300
1:30
140
1.0
141
30.0
290
     0
  0
SCALE
  5
51
102
{ACAD_REACTORS
330
47
102
}
330
47
100
AcDbScale
 70
     0
300
1:40
140
1.0
141
40.0
290
     0
  0
SCALE
  5
52
102
{ACAD_REACTORS
330
47
102
}
330
47
100
AcDbScale
 70
     0
300
1:50
140
1.0
141
50.0
290
     0
  0
SCALE
  5
53
102
{ACAD_REACTORS
330
47
102
}
330
47
100
AcDbScale
 70
     0
300
1:100
140
1.0
141
100.0
290
     0
  0
SCALE
  5
54
102
{ACAD_REACTORS
330
47
102
}
330
47
100
AcDbScale
 70
     0
300
2:1
140
2.0
141
1.0
290
     0
  0
SCALE
  5
55
102
{ACAD_REACTORS
330
47
102
}
330
47
100
AcDbScale
 70
     0
300
4:1
140
4.0
141
1.0
290
     0
  0
SCALE
  5
56
102
{ACAD_REACTORS
330
47
102
}
330
47
100
AcDbScale
 70
     0
300
8:1
140
8.0
141
1.0
290
     0
  0
SCALE
  5
57
102
{ACAD_REACTORS
330
47
102
}
330
47
100
AcDbScale
 70
     0
300
10:1
140
10.0
141
1.0
290
     0
  0
SCALE
  5
58
102
{ACAD_REACTORS
330
47
102
}
330
47
100
AcDbScale
 70
     0
300
100:1
140
100.0
141
1.0
290
     0
  0
SCALE
  5
59
102
{ACAD_REACTORS
330
47
102
}
330
47
100
AcDbScale
 70
     0
300
1/128" = 1'-0"
140
0.0078125
141
12.0
290
     0
  0
SCALE
  5
5A
102
{ACAD_REACTORS
330
47
102
}
330
47
100
AcDbScale
 70
     0
300
1/64" = 1'-0"
140
0.015625
141
12.0
290
     0
  0
SCALE
  5
5B
102
{ACAD_REACTORS
330
47
102
}
330
47
100
AcDbScale
 70
     0
300
1/32" = 1'-0"
140
0.03125
141
12.0
290
     0
  0
SCALE
  5
5C
102
{ACAD_REACTORS
330
47
102
}
330
47
100
AcDbScale
 70
     0
300
1/16" = 1'-0"
140
0.0625
141
12.0
290
     0
  0
SCALE
  5
5D
102
{ACAD_REACTORS
330
47
102
}
330
47
100
AcDbScale
 70
     0
300
3/32" = 1'-0"
140
0.09375
141
12.0
290
     0
  0
SCALE
  5
5E
102
{ACAD_REACTORS
330
47
102
}
330
47
100
AcDbScale
 70
     0
300
1/8" = 1'-0"
140
0.125
141
12.0
290
     0
  0
SCALE
  5
5F
102
{ACAD_REACTORS
330
47
102
}
330
47
100
AcDbScale
 70
     0
300
3/16" = 1'-0"
140
0.1875
141
12.0
290
     0
  0
SCALE
  5
60
102
{ACAD_REACTORS
330
47
102
}
330
47
100
AcDbScale
 70
     0
300
1/4" = 1'-0"
140
0.25
141
12.0
290
     0
  0
SCALE
  5
61
102
{ACAD_REACTORS
330
47
102
}
330
47
100
AcDbScale
 70
     0
300
3/8" = 1'-0"
140
0.375
141
12.0
290
     0
  0
SCALE
  5
62
102
{ACAD_REACTORS
330
47
102
}
330
47
100
AcDbScale
 70
     0
300
1/2" = 1'-0"
140
0.5
141
12.0
290
     0
  0
SCALE
  5
63
102
{ACAD_REACTORS
330
47
102
}
330
47
100
AcDbScale
 70
     0
300
3/4" = 1'-0"
140
0.75
141
12.0
290
     0
  0
SCALE
  5
64
102
{ACAD_REACTORS
330
47
102
}
330
47
100
AcDbScale
 70
     0
300
1" = 1'-0"
140
1.0
141
12.0
290
     0
  0
SCALE
  5
65
102
{ACAD_REACTORS
330
47
102
}
330
47
100
AcDbScale
 70
     0
300
1-1/2" = 1'-0"
140
1.5
141
12.0
290
     0
  0
SCALE
  5
66
102
{ACAD_REACTORS
330
47
102
}
330
47
100
AcDbScale
 70
     0
300
3" = 1'-0"
140
3.0
141
12.0
290
     0
  0
SCALE
  5
67
102
{ACAD_REACTORS
330
47
102
}
330
47
100
AcDbScale
 70
     0
300
6" = 1'-0"
140
6.0
141
12.0
290
     0
  0
SCALE
  5
68
102
{ACAD_REACTORS
330
47
102
}
330
47
100
AcDbScale
 70
     0
300
1'-0" = 1'-0"
140
12.0
141
12.0
290
     0
  0
ENDSEC
  0
EOF
